ISO-10303-21;
HEADER;
FILE_DESCRIPTION(('CATIA V5 STEP Exchange'),'2;1');

FILE_NAME('C:\\Users\\Astroboy\\Desktop\\RIDIX\\20_NORMATIVE_AUTOMOTIVE\\30_ACCESSORI\\RDST209\\STEP\\RDST209.stp','2017-03-08T09:08:49+00:00',('none'),('none'),'CATIA Version 5 Release 19 GA (IN-10)','CATIA V5 STEP AP203','none');

FILE_SCHEMA(('CONFIG_CONTROL_DESIGN'));

ENDSEC;
/* file written by CATIA V5R19 */
DATA;
#5=PRODUCT('RDST209.323216','','RITEGNO PER BOCCOLA\X2\000D\X0\\X2\000A\X0\NORMATIVE AUTOMOTIVE\X2\000D\X0\\X2\000A\X0\',(#2)) ;
#1=APPLICATION_CONTEXT('configuration controlled 3D design of mechanical parts and assemblies') ;
#14=PRODUCT_DEFINITION('',' ',#6,#3) ;
#16=SECURITY_CLASSIFICATION(' ',' ',#15) ;
#15=SECURITY_CLASSIFICATION_LEVEL('unclassified') ;
#47=CARTESIAN_POINT(' ',(0.,0.,0.)) ;
#51=CARTESIAN_POINT('Line Origine',(0.,0.,0.)) ;
#55=CARTESIAN_POINT('Limit',(0.,0.,0.)) ;
#56=CARTESIAN_POINT('Limit',(20.,0.,0.)) ;
#63=CARTESIAN_POINT('Line Origine',(0.,0.,0.)) ;
#67=CARTESIAN_POINT('Limit',(0.,0.,0.)) ;
#68=CARTESIAN_POINT('Limit',(0.,20.,0.)) ;
#72=CARTESIAN_POINT('Line Origine',(0.,0.,0.)) ;
#76=CARTESIAN_POINT('Limit',(0.,0.,0.)) ;
#77=CARTESIAN_POINT('Limit',(0.,0.,20.)) ;
#81=CARTESIAN_POINT('Punto.4',(0.,0.,0.)) ;
#83=CARTESIAN_POINT('Axis2P3D Location',(5.75,0.,0.)) ;
#88=CARTESIAN_POINT('Axis2P3D Location',(0.,0.,0.)) ;
#92=CARTESIAN_POINT('Vertex',(7.67884741654,-4.19497346279,0.)) ;
#94=CARTESIAN_POINT('Vertex',(-7.67884741654,4.19497346279,0.)) ;
#97=CARTESIAN_POINT('Axis2P3D Location',(0.,0.,0.)) ;
#106=CARTESIAN_POINT('Axis2P3D Location',(0.,0.,0.)) ;
#110=CARTESIAN_POINT('Vertex',(-5.04609973087,2.75669684697,1.7763568394E-015)) ;
#112=CARTESIAN_POINT('Vertex',(5.04609973087,-2.75669684697,1.7763568394E-015)) ;
#115=CARTESIAN_POINT('Axis2P3D Location',(0.,0.,0.)) ;
#125=CARTESIAN_POINT('Axis2P3D Location',(0.,0.,6.9)) ;
#130=CARTESIAN_POINT('Axis2P3D Location',(0.,0.,-8.5)) ;
#134=CARTESIAN_POINT('Vertex',(-5.04609973087,2.75669684697,-8.5)) ;
#136=CARTESIAN_POINT('Vertex',(5.04609973087,-2.75669684697,-8.5)) ;
#139=CARTESIAN_POINT('Line Origine',(-5.04609973087,2.75669684697,-4.25)) ;
#144=CARTESIAN_POINT('Line Origine',(5.04609973087,-2.75669684697,-4.25)) ;
#156=CARTESIAN_POINT('Axis2P3D Location',(0.,0.,-8.5)) ;
#168=CARTESIAN_POINT('Axis2P3D Location',(-11.,16.,0.)) ;
#173=CARTESIAN_POINT('Line Origine',(-11.,16.,-0.999999999913)) ;
#177=CARTESIAN_POINT('Vertex',(-11.,16.,-9.)) ;
#179=CARTESIAN_POINT('Vertex',(-11.,16.,7.)) ;
#182=CARTESIAN_POINT('Line Origine',(5.,16.,6.99999999994)) ;
#186=CARTESIAN_POINT('Vertex',(21.,16.,7.)) ;
#189=CARTESIAN_POINT('Line Origine',(21.,16.,2.00000000006)) ;
#193=CARTESIAN_POINT('Vertex',(21.,16.,-2.99999999994)) ;
#196=CARTESIAN_POINT('Line Origine',(16.,16.,-3.)) ;
#200=CARTESIAN_POINT('Vertex',(11.,16.,-3.)) ;
#203=CARTESIAN_POINT('Line Origine',(11.,16.,-5.75)) ;
#207=CARTESIAN_POINT('Vertex',(11.,16.,-8.5)) ;
#210=CARTESIAN_POINT('Line Origine',(2.5,16.,-8.5)) ;
#214=CARTESIAN_POINT('Vertex',(-6.,16.,-8.5)) ;
#217=CARTESIAN_POINT('Line Origine',(-6.,16.,-8.75)) ;
#221=CARTESIAN_POINT('Vertex',(-6.,16.,-9.)) ;
#224=CARTESIAN_POINT('Line Origine',(-8.5,16.,-8.99999999988)) ;
#240=CARTESIAN_POINT('Axis2P3D Location',(-6.,0.,-9.)) ;
#245=CARTESIAN_POINT('Line Origine',(-6.,0.,-9.)) ;
#249=CARTESIAN_POINT('Vertex',(-6.,-16.,-9.)) ;
#252=CARTESIAN_POINT('Line Origine',(-6.,0.,-8.5)) ;
#256=CARTESIAN_POINT('Vertex',(-6.,-16.,-8.5)) ;
#259=CARTESIAN_POINT('Line Origine',(-6.,-16.,-8.75)) ;
#271=CARTESIAN_POINT('Axis2P3D Location',(11.,0.,-3.)) ;
#276=CARTESIAN_POINT('Line Origine',(11.,0.,-3.)) ;
#280=CARTESIAN_POINT('Vertex',(11.,-16.,-3.)) ;
#283=CARTESIAN_POINT('Line Origine',(21.,0.,-3.)) ;
#287=CARTESIAN_POINT('Vertex',(21.,-16.,-2.99999999994)) ;
#290=CARTESIAN_POINT('Line Origine',(16.,-16.,-3.)) ;
#302=CARTESIAN_POINT('Axis2P3D Location',(-11.,0.,7.)) ;
#307=CARTESIAN_POINT('Line Origine',(-11.,-16.,-0.999999999913)) ;
#311=CARTESIAN_POINT('Vertex',(-11.,-16.,-9.)) ;
#313=CARTESIAN_POINT('Vertex',(-11.,-16.,7.)) ;
#316=CARTESIAN_POINT('Line Origine',(-11.,0.,7.)) ;
#321=CARTESIAN_POINT('Line Origine',(-11.,0.,-9.)) ;
#333=CARTESIAN_POINT('Axis2P3D Location',(21.,0.,-3.)) ;
#338=CARTESIAN_POINT('Line Origine',(21.,0.,7.)) ;
#342=CARTESIAN_POINT('Vertex',(21.,-16.,7.)) ;
#345=CARTESIAN_POINT('Line Origine',(21.,-16.,2.00000000006)) ;
#357=CARTESIAN_POINT('Axis2P3D Location',(-11.,0.,-9.)) ;
#362=CARTESIAN_POINT('Line Origine',(-8.5,-16.,-9.)) ;
#374=CARTESIAN_POINT('Axis2P3D Location',(11.,0.,-8.5)) ;
#379=CARTESIAN_POINT('Line Origine',(11.,0.,-8.5)) ;
#383=CARTESIAN_POINT('Vertex',(11.,-16.,-8.5)) ;
#386=CARTESIAN_POINT('Line Origine',(11.,-16.,-5.75)) ;
#398=CARTESIAN_POINT('Axis2P3D Location',(21.,-16.,0.)) ;
#403=CARTESIAN_POINT('Line Origine',(5.,-16.,6.99999999994)) ;
#408=CARTESIAN_POINT('Line Origine',(2.5,-16.,-8.5)) ;
#424=CARTESIAN_POINT('Axis2P3D Location',(21.,0.,7.)) ;
#435=CARTESIAN_POINT('Axis2P3D Location',(0.,8.881784197E-016,7.)) ;
#439=CARTESIAN_POINT('Vertex',(-7.67884741654,4.19497346279,7.)) ;
#441=CARTESIAN_POINT('Vertex',(7.67884741654,-4.19497346279,7.)) ;
#444=CARTESIAN_POINT('Axis2P3D Location',(0.,1.7763568394E-015,7.)) ;
#454=CARTESIAN_POINT('Axis2P3D Location',(-6.,0.,-8.5)) ;
#470=CARTESIAN_POINT('Axis2P3D Location',(0.,0.,6.9)) ;
#475=CARTESIAN_POINT('Line Origine',(7.67884741654,-4.19497346279,3.5)) ;
#480=CARTESIAN_POINT('Line Origine',(-7.67884741654,4.19497346279,3.5)) ;
#52=DIRECTION('Vector Direction',(1.,0.,0.)) ;
#64=DIRECTION('Vector Direction',(0.,1.,0.)) ;
#73=DIRECTION('Vector Direction',(0.,0.,1.)) ;
#84=DIRECTION('Axis2P3D Direction',(0.,0.,-1.)) ;
#85=DIRECTION('Axis2P3D XDirection',(1.,0.,0.)) ;
#89=DIRECTION('Axis2P3D Direction',(0.,0.,-1.)) ;
#98=DIRECTION('Axis2P3D Direction',(0.,0.,-1.)) ;
#107=DIRECTION('Axis2P3D Direction',(0.,0.,-1.)) ;
#116=DIRECTION('Axis2P3D Direction',(0.,0.,-1.)) ;
#126=DIRECTION('Axis2P3D Direction',(0.,-0.,-1.)) ;
#127=DIRECTION('Axis2P3D XDirection',(-0.87758256189,0.479425538604,0.)) ;
#131=DIRECTION('Axis2P3D Direction',(0.,-0.,-1.)) ;
#140=DIRECTION('Vector Direction',(0.,0.,-1.)) ;
#145=DIRECTION('Vector Direction',(0.,0.,-1.)) ;
#157=DIRECTION('Axis2P3D Direction',(0.,-0.,-1.)) ;
#169=DIRECTION('Axis2P3D Direction',(0.,-1.,0.)) ;
#170=DIRECTION('Axis2P3D XDirection',(1.,0.,0.)) ;
#174=DIRECTION('Vector Direction',(0.,0.,1.)) ;
#183=DIRECTION('Vector Direction',(-1.,0.,3.63797880709E-012)) ;
#190=DIRECTION('Vector Direction',(0.,0.,1.)) ;
#197=DIRECTION('Vector Direction',(-1.,0.,0.)) ;
#204=DIRECTION('Vector Direction',(0.,0.,1.)) ;
#211=DIRECTION('Vector Direction',(1.,0.,0.)) ;
#218=DIRECTION('Vector Direction',(0.,0.,1.)) ;
#225=DIRECTION('Vector Direction',(1.,0.,-4.65661287308E-011)) ;
#241=DIRECTION('Axis2P3D Direction',(-1.,0.,0.)) ;
#242=DIRECTION('Axis2P3D XDirection',(0.,0.,1.)) ;
#246=DIRECTION('Vector Direction',(0.,1.,0.)) ;
#253=DIRECTION('Vector Direction',(0.,1.,0.)) ;
#260=DIRECTION('Vector Direction',(0.,0.,1.)) ;
#272=DIRECTION('Axis2P3D Direction',(0.,0.,1.)) ;
#273=DIRECTION('Axis2P3D XDirection',(1.,0.,0.)) ;
#277=DIRECTION('Vector Direction',(0.,1.,0.)) ;
#284=DIRECTION('Vector Direction',(0.,1.,0.)) ;
#291=DIRECTION('Vector Direction',(-1.,0.,0.)) ;
#303=DIRECTION('Axis2P3D Direction',(1.,-0.,0.)) ;
#304=DIRECTION('Axis2P3D XDirection',(0.,0.,-1.)) ;
#308=DIRECTION('Vector Direction',(0.,0.,1.)) ;
#317=DIRECTION('Vector Direction',(0.,1.,0.)) ;
#322=DIRECTION('Vector Direction',(0.,1.,0.)) ;
#334=DIRECTION('Axis2P3D Direction',(-1.,0.,0.)) ;
#335=DIRECTION('Axis2P3D XDirection',(0.,0.,1.)) ;
#339=DIRECTION('Vector Direction',(0.,1.,0.)) ;
#346=DIRECTION('Vector Direction',(0.,0.,1.)) ;
#358=DIRECTION('Axis2P3D Direction',(0.,0.,1.)) ;
#359=DIRECTION('Axis2P3D XDirection',(1.,0.,0.)) ;
#363=DIRECTION('Vector Direction',(1.,0.,0.)) ;
#375=DIRECTION('Axis2P3D Direction',(-1.,0.,0.)) ;
#376=DIRECTION('Axis2P3D XDirection',(0.,0.,1.)) ;
#380=DIRECTION('Vector Direction',(0.,1.,0.)) ;
#387=DIRECTION('Vector Direction',(0.,0.,1.)) ;
#399=DIRECTION('Axis2P3D Direction',(0.,1.,-0.)) ;
#400=DIRECTION('Axis2P3D XDirection',(-1.,0.,0.)) ;
#404=DIRECTION('Vector Direction',(-1.,0.,-3.63797880709E-012)) ;
#409=DIRECTION('Vector Direction',(1.,0.,0.)) ;
#425=DIRECTION('Axis2P3D Direction',(0.,0.,-1.)) ;
#426=DIRECTION('Axis2P3D XDirection',(-1.,0.,0.)) ;
#436=DIRECTION('Axis2P3D Direction',(0.,0.,-1.)) ;
#445=DIRECTION('Axis2P3D Direction',(0.,0.,-1.)) ;
#455=DIRECTION('Axis2P3D Direction',(0.,0.,1.)) ;
#456=DIRECTION('Axis2P3D XDirection',(1.,0.,0.)) ;
#471=DIRECTION('Axis2P3D Direction',(0.,-0.,-1.)) ;
#472=DIRECTION('Axis2P3D XDirection',(-0.87758256189,0.479425538604,0.)) ;
#476=DIRECTION('Vector Direction',(0.,0.,-1.)) ;
#481=DIRECTION('Vector Direction',(0.,0.,-1.)) ;
#48=AXIS2_PLACEMENT_3D(' ',#47,$,$) ;
#86=AXIS2_PLACEMENT_3D('Plane Axis2P3D',#83,#84,#85) ;
#90=AXIS2_PLACEMENT_3D('Circle Axis2P3D',#88,#89,$) ;
#99=AXIS2_PLACEMENT_3D('Circle Axis2P3D',#97,#98,$) ;
#108=AXIS2_PLACEMENT_3D('Circle Axis2P3D',#106,#107,$) ;
#117=AXIS2_PLACEMENT_3D('Circle Axis2P3D',#115,#116,$) ;
#128=AXIS2_PLACEMENT_3D('Cylinder Axis2P3D',#125,#126,#127) ;
#132=AXIS2_PLACEMENT_3D('Circle Axis2P3D',#130,#131,$) ;
#158=AXIS2_PLACEMENT_3D('Circle Axis2P3D',#156,#157,$) ;
#171=AXIS2_PLACEMENT_3D('Plane Axis2P3D',#168,#169,#170) ;
#243=AXIS2_PLACEMENT_3D('Plane Axis2P3D',#240,#241,#242) ;
#274=AXIS2_PLACEMENT_3D('Plane Axis2P3D',#271,#272,#273) ;
#305=AXIS2_PLACEMENT_3D('Plane Axis2P3D',#302,#303,#304) ;
#336=AXIS2_PLACEMENT_3D('Plane Axis2P3D',#333,#334,#335) ;
#360=AXIS2_PLACEMENT_3D('Plane Axis2P3D',#357,#358,#359) ;
#377=AXIS2_PLACEMENT_3D('Plane Axis2P3D',#374,#375,#376) ;
#401=AXIS2_PLACEMENT_3D('Plane Axis2P3D',#398,#399,#400) ;
#427=AXIS2_PLACEMENT_3D('Plane Axis2P3D',#424,#425,#426) ;
#437=AXIS2_PLACEMENT_3D('Circle Axis2P3D',#435,#436,$) ;
#446=AXIS2_PLACEMENT_3D('Circle Axis2P3D',#444,#445,$) ;
#457=AXIS2_PLACEMENT_3D('Plane Axis2P3D',#454,#455,#456) ;
#473=AXIS2_PLACEMENT_3D('Cylinder Axis2P3D',#470,#471,#472) ;
#40=PRODUCT_DEFINITION_SHAPE(' ',' ',#14) ;
#59=COMPOSITE_CURVE('Linea.1',(#58),.U.) ;
#71=COMPOSITE_CURVE('Linea.2',(#70),.U.) ;
#80=COMPOSITE_CURVE('Linea.3',(#79),.U.) ;
#58=COMPOSITE_CURVE_SEGMENT(.DISCONTINUOUS.,.T.,#57) ;
#70=COMPOSITE_CURVE_SEGMENT(.DISCONTINUOUS.,.T.,#69) ;
#79=COMPOSITE_CURVE_SEGMENT(.DISCONTINUOUS.,.T.,#78) ;
#31=APPROVAL_PERSON_ORGANIZATION(#25,#21,#19) ;
#25=PERSON_AND_ORGANIZATION(#22,#23) ;
#22=PERSON(' ',' ',' ',$,$,$) ;
#23=ORGANIZATION(' ',' ',' ') ;
#21=APPROVAL(#20,' ') ;
#20=APPROVAL_STATUS('not_yet_approved') ;
#19=APPROVAL_ROLE('APPROVER') ;
#13=DATE_AND_TIME(#11,#12) ;
#12=LOCAL_TIME(10,8,49.,#10) ;
#10=COORDINATED_UNIVERSAL_TIME_OFFSET(0,0,.AHEAD.) ;
#103=ORIENTED_EDGE('',*,*,#96,.F.) ;
#104=ORIENTED_EDGE('',*,*,#101,.F.) ;
#121=ORIENTED_EDGE('',*,*,#114,.T.) ;
#122=ORIENTED_EDGE('',*,*,#119,.T.) ;
#150=ORIENTED_EDGE('',*,*,#138,.F.) ;
#151=ORIENTED_EDGE('',*,*,#143,.T.) ;
#152=ORIENTED_EDGE('',*,*,#119,.F.) ;
#153=ORIENTED_EDGE('',*,*,#148,.F.) ;
#162=ORIENTED_EDGE('',*,*,#160,.F.) ;
#163=ORIENTED_EDGE('',*,*,#148,.T.) ;
#164=ORIENTED_EDGE('',*,*,#114,.F.) ;
#165=ORIENTED_EDGE('',*,*,#143,.F.) ;
#230=ORIENTED_EDGE('',*,*,#181,.T.) ;
#231=ORIENTED_EDGE('',*,*,#188,.F.) ;
#232=ORIENTED_EDGE('',*,*,#195,.F.) ;
#233=ORIENTED_EDGE('',*,*,#202,.T.) ;
#234=ORIENTED_EDGE('',*,*,#209,.F.) ;
#235=ORIENTED_EDGE('',*,*,#216,.F.) ;
#236=ORIENTED_EDGE('',*,*,#223,.F.) ;
#237=ORIENTED_EDGE('',*,*,#228,.F.) ;
#265=ORIENTED_EDGE('',*,*,#251,.T.) ;
#266=ORIENTED_EDGE('',*,*,#223,.T.) ;
#267=ORIENTED_EDGE('',*,*,#258,.F.) ;
#268=ORIENTED_EDGE('',*,*,#263,.F.) ;
#296=ORIENTED_EDGE('',*,*,#282,.T.) ;
#297=ORIENTED_EDGE('',*,*,#202,.F.) ;
#298=ORIENTED_EDGE('',*,*,#289,.F.) ;
#299=ORIENTED_EDGE('',*,*,#294,.T.) ;
#327=ORIENTED_EDGE('',*,*,#315,.T.) ;
#328=ORIENTED_EDGE('',*,*,#320,.T.) ;
#329=ORIENTED_EDGE('',*,*,#181,.F.) ;
#330=ORIENTED_EDGE('',*,*,#325,.F.) ;
#351=ORIENTED_EDGE('',*,*,#195,.T.) ;
#352=ORIENTED_EDGE('',*,*,#344,.F.) ;
#353=ORIENTED_EDGE('',*,*,#349,.F.) ;
#354=ORIENTED_EDGE('',*,*,#289,.T.) ;
#368=ORIENTED_EDGE('',*,*,#325,.T.) ;
#369=ORIENTED_EDGE('',*,*,#228,.T.) ;
#370=ORIENTED_EDGE('',*,*,#251,.F.) ;
#371=ORIENTED_EDGE('',*,*,#366,.F.) ;
#392=ORIENTED_EDGE('',*,*,#385,.T.) ;
#393=ORIENTED_EDGE('',*,*,#209,.T.) ;
#394=ORIENTED_EDGE('',*,*,#282,.F.) ;
#395=ORIENTED_EDGE('',*,*,#390,.F.) ;
#414=ORIENTED_EDGE('',*,*,#349,.T.) ;
#415=ORIENTED_EDGE('',*,*,#407,.T.) ;
#416=ORIENTED_EDGE('',*,*,#315,.F.) ;
#417=ORIENTED_EDGE('',*,*,#366,.T.) ;
#418=ORIENTED_EDGE('',*,*,#263,.T.) ;
#419=ORIENTED_EDGE('',*,*,#412,.T.) ;
#420=ORIENTED_EDGE('',*,*,#390,.T.) ;
#421=ORIENTED_EDGE('',*,*,#294,.F.) ;
#430=ORIENTED_EDGE('',*,*,#344,.T.) ;
#431=ORIENTED_EDGE('',*,*,#188,.T.) ;
#432=ORIENTED_EDGE('',*,*,#320,.F.) ;
#433=ORIENTED_EDGE('',*,*,#407,.F.) ;
#450=ORIENTED_EDGE('',*,*,#443,.T.) ;
#451=ORIENTED_EDGE('',*,*,#448,.T.) ;
#460=ORIENTED_EDGE('',*,*,#258,.T.) ;
#461=ORIENTED_EDGE('',*,*,#216,.T.) ;
#462=ORIENTED_EDGE('',*,*,#385,.F.) ;
#463=ORIENTED_EDGE('',*,*,#412,.F.) ;
#466=ORIENTED_EDGE('',*,*,#160,.T.) ;
#467=ORIENTED_EDGE('',*,*,#138,.T.) ;
#486=ORIENTED_EDGE('',*,*,#448,.F.) ;
#487=ORIENTED_EDGE('',*,*,#479,.F.) ;
#488=ORIENTED_EDGE('',*,*,#96,.T.) ;
#489=ORIENTED_EDGE('',*,*,#484,.T.) ;
#493=ORIENTED_EDGE('',*,*,#443,.F.) ;
#494=ORIENTED_EDGE('',*,*,#484,.F.) ;
#495=ORIENTED_EDGE('',*,*,#101,.T.) ;
#496=ORIENTED_EDGE('',*,*,#479,.T.) ;
#123=FACE_BOUND('',#120,.T.) ;
#452=FACE_BOUND('',#449,.T.) ;
#468=FACE_BOUND('',#465,.T.) ;
#82=CLOSED_SHELL('Closed Shell',(#124,#155,#167,#239,#270,#301,#332,#356,#373,#397,#423,#453,#469,#491,#498)) ;
#53=VECTOR('Line Direction',#52,1.) ;
#65=VECTOR('Line Direction',#64,1.) ;
#74=VECTOR('Line Direction',#73,1.) ;
#141=VECTOR('Line Direction',#140,1.) ;
#146=VECTOR('Line Direction',#145,1.) ;
#175=VECTOR('Line Direction',#174,1.) ;
#184=VECTOR('Line Direction',#183,1.) ;
#191=VECTOR('Line Direction',#190,1.) ;
#198=VECTOR('Line Direction',#197,1.) ;
#205=VECTOR('Line Direction',#204,1.) ;
#212=VECTOR('Line Direction',#211,1.) ;
#219=VECTOR('Line Direction',#218,1.) ;
#226=VECTOR('Line Direction',#225,1.) ;
#247=VECTOR('Line Direction',#246,1.) ;
#254=VECTOR('Line Direction',#253,1.) ;
#261=VECTOR('Line Direction',#260,1.) ;
#278=VECTOR('Line Direction',#277,1.) ;
#285=VECTOR('Line Direction',#284,1.) ;
#292=VECTOR('Line Direction',#291,1.) ;
#309=VECTOR('Line Direction',#308,1.) ;
#318=VECTOR('Line Direction',#317,1.) ;
#323=VECTOR('Line Direction',#322,1.) ;
#340=VECTOR('Line Direction',#339,1.) ;
#347=VECTOR('Line Direction',#346,1.) ;
#364=VECTOR('Line Direction',#363,1.) ;
#381=VECTOR('Line Direction',#380,1.) ;
#388=VECTOR('Line Direction',#387,1.) ;
#405=VECTOR('Line Direction',#404,1.) ;
#410=VECTOR('Line Direction',#409,1.) ;
#477=VECTOR('Line Direction',#476,1.) ;
#482=VECTOR('Line Direction',#481,1.) ;
#500=ADVANCED_BREP_SHAPE_REPRESENTATION('NONE',(#499),#46) ;
#49=SHAPE_REPRESENTATION(' ',(#48),#46) ;
#124=ADVANCED_FACE('PartBody',(#105,#123),#87,.F.) ;
#155=ADVANCED_FACE('PartBody',(#154),#129,.F.) ;
#167=ADVANCED_FACE('PartBody',(#166),#129,.F.) ;
#239=ADVANCED_FACE('PartBody',(#238),#172,.F.) ;
#270=ADVANCED_FACE('PartBody',(#269),#244,.F.) ;
#301=ADVANCED_FACE('PartBody',(#300),#275,.F.) ;
#332=ADVANCED_FACE('PartBody',(#331),#306,.F.) ;
#356=ADVANCED_FACE('PartBody',(#355),#337,.F.) ;
#373=ADVANCED_FACE('PartBody',(#372),#361,.F.) ;
#397=ADVANCED_FACE('PartBody',(#396),#378,.F.) ;
#423=ADVANCED_FACE('PartBody',(#422),#402,.F.) ;
#453=ADVANCED_FACE('PartBody',(#434,#452),#428,.F.) ;
#469=ADVANCED_FACE('PartBody',(#464,#468),#458,.F.) ;
#491=ADVANCED_FACE('PartBody',(#490),#474,.F.) ;
#498=ADVANCED_FACE('PartBody',(#497),#474,.F.) ;
#4=APPLICATION_PROTOCOL_DEFINITION('international standard','config_control_design',1994,#1) ;
#32=APPROVAL_DATE_TIME(#13,#21) ;
#499=MANIFOLD_SOLID_BREP('PartBody',#82) ;
#11=CALENDAR_DATE(2017,8,3) ;
#30=CC_DESIGN_APPROVAL(#21,(#16,#6,#14)) ;
#18=CC_DESIGN_DATE_AND_TIME_ASSIGNMENT(#13,#17,(#16)) ;
#29=CC_DESIGN_DATE_AND_TIME_ASSIGNMENT(#13,#28,(#14)) ;
#17=DATE_TIME_ROLE('classification_date') ;
#28=DATE_TIME_ROLE('creation_date') ;
#27=CC_DESIGN_PERSON_AND_ORGANIZATION_ASSIGNMENT(#25,#26,(#16)) ;
#33=CC_DESIGN_PERSON_AND_ORGANIZATION_ASSIGNMENT(#25,#34,(#6)) ;
#35=CC_DESIGN_PERSON_AND_ORGANIZATION_ASSIGNMENT(#25,#36,(#6,#14)) ;
#37=CC_DESIGN_PERSON_AND_ORGANIZATION_ASSIGNMENT(#25,#38,(#5)) ;
#26=PERSON_AND_ORGANIZATION_ROLE('classification_officer') ;
#34=PERSON_AND_ORGANIZATION_ROLE('design_supplier') ;
#36=PERSON_AND_ORGANIZATION_ROLE('creator') ;
#38=PERSON_AND_ORGANIZATION_ROLE('design_owner') ;
#39=CC_DESIGN_SECURITY_CLASSIFICATION(#16,(#6)) ;
#91=CIRCLE('generated circle',#90,8.75) ;
#100=CIRCLE('generated circle',#99,8.75) ;
#109=CIRCLE('generated circle',#108,5.75) ;
#118=CIRCLE('generated circle',#117,5.75) ;
#133=CIRCLE('generated circle',#132,5.75) ;
#159=CIRCLE('generated circle',#158,5.75) ;
#438=CIRCLE('generated circle',#437,8.75) ;
#447=CIRCLE('generated circle',#446,8.75) ;
#62=SHAPE_REPRESENTATION_RELATIONSHIP(' ',' ',#49,#60) ;
#501=SHAPE_REPRESENTATION_RELATIONSHIP(' ',' ',#49,#500) ;
#129=CYLINDRICAL_SURFACE('generated cylinder',#128,5.75) ;
#474=CYLINDRICAL_SURFACE('generated cylinder',#473,8.75) ;
#3=DESIGN_CONTEXT(' ',#1,'design') ;
#96=EDGE_CURVE('',#93,#95,#91,.T.) ;
#101=EDGE_CURVE('',#95,#93,#100,.T.) ;
#114=EDGE_CURVE('',#111,#113,#109,.T.) ;
#119=EDGE_CURVE('',#113,#111,#118,.T.) ;
#138=EDGE_CURVE('',#135,#137,#133,.F.) ;
#143=EDGE_CURVE('',#135,#111,#142,.F.) ;
#148=EDGE_CURVE('',#137,#113,#147,.F.) ;
#160=EDGE_CURVE('',#137,#135,#159,.F.) ;
#181=EDGE_CURVE('',#178,#180,#176,.T.) ;
#188=EDGE_CURVE('',#187,#180,#185,.T.) ;
#195=EDGE_CURVE('',#194,#187,#192,.T.) ;
#202=EDGE_CURVE('',#194,#201,#199,.T.) ;
#209=EDGE_CURVE('',#208,#201,#206,.T.) ;
#216=EDGE_CURVE('',#215,#208,#213,.T.) ;
#223=EDGE_CURVE('',#222,#215,#220,.T.) ;
#228=EDGE_CURVE('',#178,#222,#227,.T.) ;
#251=EDGE_CURVE('',#250,#222,#248,.T.) ;
#258=EDGE_CURVE('',#257,#215,#255,.T.) ;
#263=EDGE_CURVE('',#250,#257,#262,.T.) ;
#282=EDGE_CURVE('',#281,#201,#279,.T.) ;
#289=EDGE_CURVE('',#288,#194,#286,.T.) ;
#294=EDGE_CURVE('',#288,#281,#293,.T.) ;
#315=EDGE_CURVE('',#312,#314,#310,.T.) ;
#320=EDGE_CURVE('',#314,#180,#319,.T.) ;
#325=EDGE_CURVE('',#312,#178,#324,.T.) ;
#344=EDGE_CURVE('',#343,#187,#341,.T.) ;
#349=EDGE_CURVE('',#288,#343,#348,.T.) ;
#366=EDGE_CURVE('',#312,#250,#365,.T.) ;
#385=EDGE_CURVE('',#384,#208,#382,.T.) ;
#390=EDGE_CURVE('',#384,#281,#389,.T.) ;
#407=EDGE_CURVE('',#343,#314,#406,.T.) ;
#412=EDGE_CURVE('',#257,#384,#411,.T.) ;
#443=EDGE_CURVE('',#440,#442,#438,.T.) ;
#448=EDGE_CURVE('',#442,#440,#447,.T.) ;
#479=EDGE_CURVE('',#93,#442,#478,.F.) ;
#484=EDGE_CURVE('',#95,#440,#483,.F.) ;
#102=EDGE_LOOP('',(#103,#104)) ;
#120=EDGE_LOOP('',(#121,#122)) ;
#149=EDGE_LOOP('',(#150,#151,#152,#153)) ;
#161=EDGE_LOOP('',(#162,#163,#164,#165)) ;
#229=EDGE_LOOP('',(#230,#231,#232,#233,#234,#235,#236,#237)) ;
#264=EDGE_LOOP('',(#265,#266,#267,#268)) ;
#295=EDGE_LOOP('',(#296,#297,#298,#299)) ;
#326=EDGE_LOOP('',(#327,#328,#329,#330)) ;
#350=EDGE_LOOP('',(#351,#352,#353,#354)) ;
#367=EDGE_LOOP('',(#368,#369,#370,#371)) ;
#391=EDGE_LOOP('',(#392,#393,#394,#395)) ;
#413=EDGE_LOOP('',(#414,#415,#416,#417,#418,#419,#420,#421)) ;
#429=EDGE_LOOP('',(#430,#431,#432,#433)) ;
#449=EDGE_LOOP('',(#450,#451)) ;
#459=EDGE_LOOP('',(#460,#461,#462,#463)) ;
#465=EDGE_LOOP('',(#466,#467)) ;
#485=EDGE_LOOP('',(#486,#487,#488,#489)) ;
#492=EDGE_LOOP('',(#493,#494,#495,#496)) ;
#105=FACE_OUTER_BOUND('',#102,.T.) ;
#154=FACE_OUTER_BOUND('',#149,.T.) ;
#166=FACE_OUTER_BOUND('',#161,.T.) ;
#238=FACE_OUTER_BOUND('',#229,.T.) ;
#269=FACE_OUTER_BOUND('',#264,.T.) ;
#300=FACE_OUTER_BOUND('',#295,.T.) ;
#331=FACE_OUTER_BOUND('',#326,.T.) ;
#355=FACE_OUTER_BOUND('',#350,.T.) ;
#372=FACE_OUTER_BOUND('',#367,.T.) ;
#396=FACE_OUTER_BOUND('',#391,.T.) ;
#422=FACE_OUTER_BOUND('',#413,.T.) ;
#434=FACE_OUTER_BOUND('',#429,.T.) ;
#464=FACE_OUTER_BOUND('',#459,.T.) ;
#490=FACE_OUTER_BOUND('',#485,.T.) ;
#497=FACE_OUTER_BOUND('',#492,.T.) ;
#61=GEOMETRIC_SET('NONE',(#59,#71,#80,#81)) ;
#60=GEOMETRICALLY_BOUNDED_SURFACE_SHAPE_REPRESENTATION('NONE',(#61),#46) ;
#45=UNCERTAINTY_MEASURE_WITH_UNIT(LENGTH_MEASURE(0.005),#41,'distance_accuracy_value','CONFUSED CURVE UNCERTAINTY') ;
#54=LINE('Line',#51,#53) ;
#66=LINE('Line',#63,#65) ;
#75=LINE('Line',#72,#74) ;
#142=LINE('Line',#139,#141) ;
#147=LINE('Line',#144,#146) ;
#176=LINE('Line',#173,#175) ;
#185=LINE('Line',#182,#184) ;
#192=LINE('Line',#189,#191) ;
#199=LINE('Line',#196,#198) ;
#206=LINE('Line',#203,#205) ;
#213=LINE('Line',#210,#212) ;
#220=LINE('Line',#217,#219) ;
#227=LINE('Line',#224,#226) ;
#248=LINE('Line',#245,#247) ;
#255=LINE('Line',#252,#254) ;
#262=LINE('Line',#259,#261) ;
#279=LINE('Line',#276,#278) ;
#286=LINE('Line',#283,#285) ;
#293=LINE('Line',#290,#292) ;
#310=LINE('Line',#307,#309) ;
#319=LINE('Line',#316,#318) ;
#324=LINE('Line',#321,#323) ;
#341=LINE('Line',#338,#340) ;
#348=LINE('Line',#345,#347) ;
#365=LINE('Line',#362,#364) ;
#382=LINE('Line',#379,#381) ;
#389=LINE('Line',#386,#388) ;
#406=LINE('Line',#403,#405) ;
#411=LINE('Line',#408,#410) ;
#478=LINE('Line',#475,#477) ;
#483=LINE('Line',#480,#482) ;
#2=MECHANICAL_CONTEXT(' ',#1,'mechanical') ;
#24=PERSONAL_ADDRESS(' ',' ',' ',' ',' ',' ',' ',' ',' ',' ',' ',' ',(#22),' ') ;
#87=PLANE('Plane',#86) ;
#172=PLANE('Plane',#171) ;
#244=PLANE('Plane',#243) ;
#275=PLANE('Plane',#274) ;
#306=PLANE('Plane',#305) ;
#337=PLANE('Plane',#336) ;
#361=PLANE('Plane',#360) ;
#378=PLANE('Plane',#377) ;
#402=PLANE('Plane',#401) ;
#428=PLANE('Plane',#427) ;
#458=PLANE('Plane',#457) ;
#43=PLANE_ANGLE_MEASURE_WITH_UNIT(PLANE_ANGLE_MEASURE(0.0174532925199),#42) ;
#7=PRODUCT_CATEGORY('part',$) ;
#9=PRODUCT_CATEGORY_RELATIONSHIP(' ',' ',#7,#8) ;
#6=PRODUCT_DEFINITION_FORMATION_WITH_SPECIFIED_SOURCE('',' ',#5,.NOT_KNOWN.) ;
#8=PRODUCT_RELATED_PRODUCT_CATEGORY('detail',$,(#5)) ;
#50=SHAPE_DEFINITION_REPRESENTATION(#40,#49) ;
#57=TRIMMED_CURVE('',#54,(#55),(#56),.T.,.CARTESIAN.) ;
#69=TRIMMED_CURVE('',#66,(#67),(#68),.T.,.CARTESIAN.) ;
#78=TRIMMED_CURVE('',#75,(#76),(#77),.T.,.CARTESIAN.) ;
#93=VERTEX_POINT('',#92) ;
#95=VERTEX_POINT('',#94) ;
#111=VERTEX_POINT('',#110) ;
#113=VERTEX_POINT('',#112) ;
#135=VERTEX_POINT('',#134) ;
#137=VERTEX_POINT('',#136) ;
#178=VERTEX_POINT('',#177) ;
#180=VERTEX_POINT('',#179) ;
#187=VERTEX_POINT('',#186) ;
#194=VERTEX_POINT('',#193) ;
#201=VERTEX_POINT('',#200) ;
#208=VERTEX_POINT('',#207) ;
#215=VERTEX_POINT('',#214) ;
#222=VERTEX_POINT('',#221) ;
#250=VERTEX_POINT('',#249) ;
#257=VERTEX_POINT('',#256) ;
#281=VERTEX_POINT('',#280) ;
#288=VERTEX_POINT('',#287) ;
#312=VERTEX_POINT('',#311) ;
#314=VERTEX_POINT('',#313) ;
#343=VERTEX_POINT('',#342) ;
#384=VERTEX_POINT('',#383) ;
#440=VERTEX_POINT('',#439) ;
#442=VERTEX_POINT('',#441) ;
#41=(LENGTH_UNIT()NAMED_UNIT(*)SI_UNIT(.MILLI.,.METRE.)) ;
#42=(NAMED_UNIT(*)PLANE_ANGLE_UNIT()SI_UNIT($,.RADIAN.)) ;
#44=(NAMED_UNIT(*)SI_UNIT($,.STERADIAN.)SOLID_ANGLE_UNIT()) ;
#46=(GEOMETRIC_REPRESENTATION_CONTEXT(3)GLOBAL_UNCERTAINTY_ASSIGNED_CONTEXT((#45))GLOBAL_UNIT_ASSIGNED_CONTEXT((#41,#42,#44))REPRESENTATION_CONTEXT(' ',' ')) ;
ENDSEC;
END-ISO-10303-21;
